Вторник, 24.10.2017, 03:07
Приветствую Вас, Дорогой(ая) А мы вас ждали
[ Новые сообщения · Участники · Правила форума · Поиск · RSS ]
Страница 1 из 11
Форум » Музыка » Аккорды песен » Аккорды (Пифем)
Аккорды
ManiuhaДата: Пятница, 26.10.2007, 16:58 | Сообщение # 1
Хозяюшко_О
Группа: Хозяева
Сообщений: 516
Репутация: 14
Статус: Offline
Аккодры песни группы пропаганда (МЕЛОМ)

Hm G D F#

1------------------2------------------
2--3---3---3---3-------3--3-2--2-3-3-5
3-----4---4---4---4---0---------------
4----4---4---5 ---5---0---0----4---4---
5---2---2-----------0---0----4--------
6-----------3---3---------------------

Hm G
Я pисую на асфальте
D F#
Белым мелом слово "Хватит!"
Хватит лжи и хватит боли -
Отпусти себя на волю

Я pисую белым мелом
Все, что так давно хотела.
Линий взлет, каpдиогpамма -
Сеpдце миpа теpпит pаны.

Hm G D
Фиолетовая пудpа, в ней ты и я.
F#
Жизнь, какая ж ты акула - ты ж беззубая.

Завтpа мел исчезнет в лужах и десятки машин
За собой следы оставят pазноцветных шин.

В белых кpошках сеpый камень
Кем-то для дpугих оставлен.
Слово "Ждать" и слово "Всюду" -
Их не помню, их забуду.

Если хочешь - можешь ты дождаться
Счастья в жизни лет так чеpез двадцать.
А мне не нужно слово "Если",
Мне нельзя сидеть на месте.

Фиолетовая пудpа, в ней ты и я.
Жизнь, какая ж ты акула - ты ж беззубая.
Завтpа мел исчезнет в лужах и десятки машин
За собой следы оставят pазноцветных шин.

Пальцы в белом, пальцы в синем.
Белый мел похож на иней.
Синей мел похож на небо,
Эх еще бы кpасный мне бы.

Миp, пожожий на калеку,
Чеpным кpугом же цветному человеку.
Мел стащила в пятом классе,
Жалко, им всю жизнь не pазукpасить.

Фиолетовая пудpа, в ней ты и я.
Жизнь, какая ж ты акула - ты ж беззубая.
Завтpа мел исчезнет в лужах и десятки машин
За собой следы оставят pазноцветных шин.

Фиолетовая пудpа, в ней ты и я.
Жизнь, какая ж ты акула - ты ж беззубая.
Завтpа мел исчезнет в лужах и десятки машин
За собой следы оставят pазноцветных шин.

Добавлено (26.10.2007, 16:58)
---------------------------------------------
Обнять(Прпоганда)

"Кто ?"

Вступление:

Кто, кто придумал эту любовь?
Если даже не будет слов я все равно услышу тебя
Кто, кто заставляет жить как в последний раз
Не отпускает тебя и меня?

Последний раз тебя целую
Не заключительный, а именно последний
Мои объятия больше греть не будут,
Щади последние мгновения.

Судьбы не изменить, я это знаю
И жизнь нам расписали по минутам и часам
Тебя последний раз я обнимаю,
Я не щажу себя и катится из глаз моих слеза

Прошу, не забывай наш первый поцелуй
Хотя забыть его для меня, наверно
Судьбы не удалось нам обмануть
Я ухожу и снова беззабвенно

Я буду обращаться к небесам,
Хотя просить не буду, чтоб ты меня запомнил
Я не судьба твоя, ты не судьба моя
И чашу нам с тобой не переполнить

Припев:

Кто, кто придумал эту любовь?
Если даже не будет слов я все равно услышу тебя
Кто, кто заставляет жить как в последний раз
Не отпускает тебя и меня

Забудь меня, прошу забудь
Забудь, и не терзай себя воспоминаньем
Ты знаешь – я сумею дальше жить,
Но сможешь это ты? Не знаю…

Прошу тебя, живи, и помни обо мне
Забудь все те слова, что говорила
Но знай, когда я уходила я плакала не меньше,
Чем смог бы плакать ты…Ведь я тебя….

Припев:
Кто, кто придумал эту любовь?
Если даже не будет слов я все равно услышу тебя
Кто, кто заставляет жить, как в последний раз
Не отпускает тебя и меня

Кто, кто придумал эту любовь?
Если даже не будет слов я все равно услышу тебя
Кто, кто придумал эту любовь?

Второй голос на фоне:

Забудь меня, прошу забудь
Забудь, и не терзай себя воспоминаньем
Ты знаешь – я сумею дальше жить,
Но сможешь это ты? Не знаю…

Прошу тебя, живи, и помни обо мне
Забудь все те слова, что говорила
Но знай, когда я уходила я плакала не меньше,
Чем смог бы плакать ты…Ведь я тебя….


 
NeOДата: Среда, 23.04.2008, 16:57 | Сообщение # 2
Классный ПацанчеГ
Группа: Проверенные
Сообщений: 5
Репутация: 2
Статус: Offline
Мне Нравется!!!!
 
ManiuhaДата: Среда, 23.04.2008, 17:04 | Сообщение # 3
Хозяюшко_О
Группа: Хозяева
Сообщений: 516
Репутация: 14
Статус: Offline
NeO, я рада hearts

 
WillMiaДата: Четверг, 01.05.2008, 15:52 | Сообщение # 4
НеФоРмАлКа
Группа: Хозяева
Сообщений: 1005
Репутация: 4
Статус: Offline
Наутилус Помпилиус - текст песни Труби, Гавриил с аккордами

am|--------
|---1----
|-----2--
|-----2--
|--------
|--------Am
Сошел на землю Гавриил
И вострубил в свою трубу
h7|---2-----
|---------
|---2-----
|-1-------
|---------
|---2-----H7
И звал на суд он всех живых
dm|--1------
|-------3-
|----2----
|---------
|---------
|---------
Dm
И всех лежащих во гробу
Но шел уже четвертый час
am|--------
|---1----
|-----2--
|-----2--
|--------
|--------Am
И каждый грешник крепко спал
h7|---2-----
|---------
|---2-----
|-1-------
|---------
|---2-----H7
И был напрасен трубный глас
em|-----------
|-----------
|-----------
|-----2-----
|-----2-----
|-----------
Em
И ни один из нас не встал

c|----------
|---1------
|----------
|-----2----
|-------3--
|-------3--C
Труби Гавриил труби
d|---2------
|-----3----
|---2------
|----------
|----------
|----------D
Хуже уже не будет
e|------------
|------------
|---1--------
|------2-----
|------2-----
|------------E
Город так крепко спит
f|-1------------
|-1------------
|-1--2---------
|-1-----3------
|-1-----3------
|-1-----------F
Что небо его не разбудит
c|----------
|---1------
|----------
|-----2----
|-------3--
|-------3--C
Труби Гавриил глухим
d|---2------
|-----3----
|---2------
|----------
|----------
|----------D
На радость своим небесам
e|------------
|------------
|---1--------
|------2-----
|------2-----
|------------E
Труби Гавриил другим
f|-1------------
|-1------------
|-1--2---------
|-1-----3------
|-1-----3------
|-1-----------F
Пока не оглохнешь сам
F e|------------
|------------
|---1--------
|------2-----
|------2-----
|------------E f|-1------------
|-1------------
|-1--2---------
|-1-----3------
|-1-----3------
|-1-----------F e|------------
|------------
|---1--------
|------2-----
|------2-----
|------------E

Рассвирепевший Серафим
Так дунул из последних сил
Что небо дрогнуло над ним
И помрачился блеск светил
Но зова медного сильней
Звучал из окон мирный храп
И перьев собственных бледней
Он выпустил трубу из лап

Труби Гавриил труби
Хуже уже не будет
Город так крепко спит
Что небо его не разбудит
Труби Гавриил глухим
На радость своим небесам
Труби Гавриил другим
Пока не оглохнешь сам


We find ourselves outside a quiet graveyard in peaceful Sunnydale, somewhere on the American continent of America. Leaning against an ivy covered headstone is Willmia the Bloody, vampire...
 
ManiuhaДата: Четверг, 08.05.2008, 12:14 | Сообщение # 5
Хозяюшко_О
Группа: Хозяева
Сообщений: 516
Репутация: 14
Статус: Offline
WillMia, а "Крылья " сможешь найти?

 
WillMiaДата: Вторник, 13.05.2008, 18:23 | Сообщение # 6
НеФоРмАлКа
Группа: Хозяева
Сообщений: 1005
Репутация: 4
Статус: Offline
Maniuha, постораюсь

We find ourselves outside a quiet graveyard in peaceful Sunnydale, somewhere on the American continent of America. Leaning against an ivy covered headstone is Willmia the Bloody, vampire...
 
DINORAXДата: Четверг, 15.05.2008, 23:46 | Сообщение # 7
BAD BOY
Группа: Проверенные
Сообщений: 182
Репутация: 3
Статус: Offline
Крылья (табы)

6|-----0-----------------------------------------------
|-----------------------------------------------------
|---------------- -------------0-----------------------
|-0-------0-----0-----0-----0-----2-----2-----2-------
|---0---0-----0-----0-----0-----3-----3-----3 ---------
1|-----7-----5-----3-----0-----5-----3-----2-----2h3p2-

6|-5--------------------- --------------0---------------
|-------------------------2---------------------------
|--------------------------------------------------- --
|-----5-----2-----2-----2-----2-----------------------
|---5-----1-----1-----1-----0-----1p0-----------------
1|-5-----3-----2-----2-- ---2-----2-----0---------------

Припев:

6|-5---------- -----------------------------------------
|-----------------------------------------------------
|---------------------------------------- -------------
|-----5------------0-----0-----5------------0-----0---
|---5------------0-----0-----5------------0-----0-----
1|-5-----5-7- 5--0-----0-----5-----5-7-5--3-----3-------

6|------------------0---- ---------------0--------0-----
|-----------------------------------------------------
|-0------------------------0------------------------ --
|-----2------------0-----0-----2----------------------
|---3------------0-----0-----3----------------4h5-----
1|-2-----2-3-2--0-----0- ----2-----2-3-2-0--7654--0-----

------------------------
1 ---7--5--3--2--5--3--2--2--5--3--2--0---------
2 ----5--5--5--5--4--4--4--4--5--5--5--5-4---3-4
3 -----4--4--4--4--4--4--4--4--5--5--5--5-4-5-54
4 -----------------------------------------4---4

1----3--3--3--3--3--3--3--3--2--2--3--3--2--2323
2-----5--5--5--5--5--5--5--5--1--1--5--5 --1----5
3------5--5--4--4--5--5--4--4--2--2--4--4--2---4

Ты снимаешь вечернее платье,
Стоя лицом к стене,
И я вижу свежие шрамы на гладкой, как бархат, спине.
Мне хочется плакать от боли или забыться во сне.
Где твои крылья, которые так нравились мне?

Где твои крылья, которые так нравились мне?
Где твои крылья, которые нравились мне?

Раньше у нас было время
Теперь у нас есть дела
Доказывать, что сильный жрет слабых
Доказывать что сажа бела
Мы все потеряли что-то
На этой безумной войне
Кстати где твои крылья
Которые нравились мне?

Где твои крылья, которые нравились мне?
Где твои крылья, которые так нравились мне?

Я не спрашиваю, сколько у тебя денег
Не спрашиваю сколько мужей
Я вижу - ты боишься открытых окон
И верхних этажей
И если завтра начнется пожар
И все здание будет в огне
Мы погибнем без этих крыльев
Которые нравились мне

Где твои крылья, которые нравились мне?
Где твои крылья, которые так нравились мне?




Сообщение отредактировал DINORAX - Четверг, 15.05.2008, 23:47
 
ManiuhaДата: Пятница, 16.05.2008, 15:46 | Сообщение # 8
Хозяюшко_О
Группа: Хозяева
Сообщений: 516
Репутация: 14
Статус: Offline
DINORAX, я тя обажаю flirt

 
DINORAXДата: Пятница, 16.05.2008, 17:56 | Сообщение # 9
BAD BOY
Группа: Проверенные
Сообщений: 182
Репутация: 3
Статус: Offline
ia rastail happy

 
WillMiaДата: Вторник, 27.05.2008, 12:41 | Сообщение # 10
НеФоРмАлКа
Группа: Хозяева
Сообщений: 1005
Репутация: 4
Статус: Offline
Название: Pодина
Исполнитель: Гражданская оборона
Автор слов: Егор Летов
Автор музыки: Егор Летов

Аккорды: G III лад полубаррэ 055430 (струны от 6 к 1 слева направо)
Am IV лад баррэ (!!!) 077555
C III лад полубаррэ 005553
D IV лад полубаррэ 007775
H II лад полубаррэ 004442
Em открытый 022000
e--------------------------------------------------
h--------------------------------------------------
g-----6-----------------------------6-----7-7-6----
d-7-9---7---------------6-9-6---7-9---7---------7-9
a---------9---------9-7-----------------9----------
e-----------10-9-10--------------------------------

кстати, для новичкофф: игpать лучше чтоб кадый палец на опpеделенном ладу стоял
(указ на 6, сpед на 7, безым на 8, миз на 9)

G Am C D
Вижy - поднимается с колен моя Pодина
Вижy, как из пепла восстаёт моя Pодина
Слышy, как поёт моя великая Pодина
Снова поднимается с колен моя Pодина.

Em C D G
Pазгибает спинy мой былинный наpод
Em C D H
Pаздвигает стены наша гневная мощь
Em C D
Солнышко зовёт нас за собою в поход
G C D
Hа гибельнyю стyжy, на кpомешнyю ночь

Вижy - поднимается с колен моя Pодина
Яpостно и гоpдо восстает моя Pодина
Слышy, как поёт моя великая Pодина
Снова поднимается с колен моя Pодина.

Сбpасывает цепи мой могyчий наpод
В сеpдцах светло и жаpко полыхает заpя
От нашего дыханья тает, плавится лёд
Под нашими ногами pасцветает земля.

Вижy - поднимается с колен моя Pодина
Вижy, как из пепла восстаёт моя Pодина
Слышy, как поёт моя советская Pодина
Снова поднимается с колен моя Pодина.

Pазгибает спинy мой великий наpод
Pаздвигает стены наша гневная мощь
Солнышко зовёт нас за собою впеpед
Hа гибельнyю стyжy, на кpомешнyю ночь

Вижy - поднимается с колен моя Pодина
Вижy, как из пепла восстаёт моя Pодина
Жаpко pазгоpается во мне моя Pодина
Слышy, как поёт моя советская Pодина.

Pодина. [x3]


We find ourselves outside a quiet graveyard in peaceful Sunnydale, somewhere on the American continent of America. Leaning against an ivy covered headstone is Willmia the Bloody, vampire...
 
ManiuhaДата: Пятница, 05.12.2008, 15:50 | Сообщение # 11
Хозяюшко_О
Группа: Хозяева
Сообщений: 516
Репутация: 14
Статус: Offline
ds

 
Форум » Музыка » Аккорды песен » Аккорды (Пифем)
Страница 1 из 11
Поиск: